Из истории
Музыканты
Статьи
Файлы
Уроки
Магазин
Гостевая

weg


 

You Gotta Move

«You Got To Move» - песня Mississippi Фреда МакДауэлла (Fred McDowell). Он сотрудничал с большим количеством молодых рок-музыкантов: давал частные уроки слайд гитары Бонни Райту, и, как сообщается, был польщен, услышав довольно схожую с оригиналом версию его «You Gotta Move» с альбома Sticky Fingers The Rolling Stones в 1971.

Биография: Mississippi Fred McDowell

You Got To Move




Фред МакДауэлл

Фред МакДауэлл



YOU GOTTA MOVE

from the album Mississippi Fred McDowell You Gotta Move
(this version recorded by Chris Strachwitz on July 5, 1965)

Открытый D Композиция исполняется в вткрытом строе D, с использованием боттлнека. Подробнее: игра боттлнеком (bottleneeck)

Открытый D (D-A-D-F#-A-D)

Изменяем стандартный строй:

Ослабьте 6 струну до унисона с 4 - ой

Ослабьте 3 струну до унисона с 4 - ой, зажатой на 4 - м ладу

Ослабьте 2 струну до унисона с 5 - ой

Ослабьте 1 струну до унисона с 4 - ой

/ - slide up
\ - slide down
h - hammer on
p - pull off
s - slide beetween notes
~ - vibrato

played in Open D (D A D F# A D from low to high)

D-|-0--/4--/7~-------------/7--7-s-5--0--/4----------/7--7--7--7--5--5--5--5|
A-|-------------------------------------------------------------------------|
F#|--------------0--------------------------0-------------------------------|
D-|-----------0--0--------------------------0-------------------------------|
A-|--------------0--------------------------0-------------------------------|
D-|-----------------/4--0----------------------/4--0------------------------|

|-7--4--0----------------------0-/4~---------------/4~---------------------| |---------/5~------------0-/3--------------------------/5~--0--------------| |-------------0---------------------0--0-----------------------0-----------| |-------------0------0-----------------0-----------------------0-----------| |-------------0------------------------0-----------------------0-----------| |----------------/4-----------------------/4--0-0-----------------/4--0----|
|--------------------------------5---/7~-----/7-7s5-/7--/4-----------/7--7--| |-3-/5--3-/5----------------------------------------------------------------| |---------------0-------------------------------------------0---------------| |------------0--0-----------------------0-0-----------------0---------------| |---------------0-------------------------0-----------------0---------------| |------------------/4--0---------------------------------------/4--0--------| You got to move You gotta move You got-
|-7---7--5--5--5--5--7---4--0-------------------------0---/4~---------------| |-------------------------------/5~-----------0--/3-------------------------| |-----------------------------------0--------------------------0------------| |-----------------------------------0--------------------------0------------| |-----------------------------------0--------------------------0------------| |--------------------------------------/4--0----------------------/4--0-0---|
 ta move chi  -  ld you gotta move           but when the lord
|-/4------------------------------------------------------------------------|
|----/5--0---------3--/5---3--/5--------------------------------------------|
|----------0-------------------------0--------------------0-----------------|
|----------0----0--------------------0--------0--/4--/7~--0--------/7-7-s-5-|
|----------0-------------------------0--------------------0-----------------|
|------------/4------------------0-0----/4--0----------0-----/4--0----------|
 gets rea   -   dy you  gotta move
|---------------------------------------------------------------------0--/4-|
|----------------------------------------------------------------0-/3-------|
|--------0----------------------------------------------0-------------------|
|-0--/4~-0---------/7--7--7--7--5--5--5--5-/7--4--0-----0-------------------|
|--------0------------------------------------------/5~-0-------------------|
|-----------/4--0------------------------------------------/4--0------------|

|----------0----/4----------------------------------------------------------| |------------------/5--0----------3-/5--3-/5~-------------------------------| |---0--------------------0-----------------------0------------------------0-| |---0--------0-----------0---------------------0-0------------------------0-| |---0--------------------0-----------------------0------------------------0-| |-0----/4--0----------------/4--0------------0------/4--0-------------------| you may be high
|------/7-7-s-5--7-/4----------/7---7---7---7--/5--5--5--5--/7---4--0-------| |----------------------------------------------------------------------/5---| |---------------------0-----------------------------------------------------| |---------------------0-----------------------------------------------------| |---------------------0-----------------------------------------------------| |-/4--0------------------/4--0----------------------------------------------| you may be low you may be rich chi - ld you may be poor
|-------------------0---/4~-----------/4------------------------------------| |-----------0--/3-------------------------/5-0-----3--/5--3--/5-------------| |-0--------------------------0-------------------------------------0--------| |-0--------------------------0-------------------------------------0--------| |-0--------------------------0-------------------------------------0--------| |----/4--0-----------------0----/4--0----------0-0---------------0----/4--0-| but when the lord gets rea - dy you gotta move
|---------------------------------------------------------------------------| |---------------------------------------------------------------------------| |-------------0------------------------0------------------------------------| |-0--/4--/7---0--------/7-7-s-5--0-/4~-0--------/7--7--7--7--5--5--5--5--/7-| |-------------0------------------------0------------------------------------| |-----------0----/4--0--------------------/4--0-----------------------------|
|---------------------------------------------------------------------------| |---------------------------------------------------------------------------| |----------0---------------------0----------------------------------------0-| |-4--0-----0--------------0--/4~-0--------/4------------------------------0-| |------/5~-0---------0-/3--------0-----------/5--0-0--0-0--3-/5--3--/5~---0-| |-------------/4--0-----------------/4--0-------------------------------0---|
|-----------------------------------/7--7-s-5---0---/4-------------/7---7---| |---------------------------------------------------------------------------| |-------------------------0------------------------------0------------------| |-------------------------0------------------------------0------------------| |---------------------0---0------------------------------0------------------| |-/4--0----------------------/4--0--------------------------/4--0-----------| you see that woman that walked the street you see
|--7---7---5--5--5--5--5-/7--4--0-----------------------0---/4--------------| |----------------------------------/5-----------0--/3-----------------------| |-------------------------------------0--------------------------0----------| |-------------------------------------0--------------------------0----------| |-------------------------------------0--------------------------0----------| |----------------------------------------/4--0-----------------0----/4--0---|
 that police   -    man out on the beat        but when the lord
|-/4------------------------------------------------------------------------|
|----/5--0-0-----3--/5--3--/5-----------------------------------------------|
|--------------------------------0---------------------0--------------------|
|--------------------------------0---------0--/4--/7~--0--------/7-7-s-5--0-|
|--------------------------------0---------------------0--------------------|
|-------------0----------------0----/4--0------------0----/4--0-------------|
 gets rea - dy   you gotta move
|-----------------------------------------------------------------0--/4~----|
|------------------------------------------------------------0-/3-----------|
|----0----------------------------------------------0---------------------0-|
|-/4-0---------/7--7--7--7--5--5--5--5-/7--4--0-----0---------------------0-|
|----0------------------------------------------/5~-0---------------------0-|
|-------/4--0------------------------------------------/4--0------------0---|

|-----0--/4-------------------------------------------------------------/7--| |-----------/5--0-0---------3-/5--3-/5~-------------------------------------| |-----------------0----------------------0----------------------------------| |-----------------0----------------------0-------------------------0--0-----| |-----------------0----------------------0-------------------------0--------| |-/4--0--------------/4--0-------------0----/4--0----------------0----------| you gotta move you
|-7-s-5--0--/4~---------/7---7---7---7---5--5--5--5-/7--4--0----------------| |-------------------------------------------------------------/5~-----------| |---------------0--------------------------------------------------0--------| |---------------0--------------------------------------------------0--------| |---------------0--------------------------------------------------0--------| |------------------/4--0----------------------------------------------/4--0-|
  got - ta move          you gotta  move chi  -  ld you gotta move
|---------0---/4~----------/4-----------------------------------------------|
|-0--/3-----------------------/5--0---------3---/5--3--/5~------------------|
|-----------------0-----------------------------------------0---------------|
|-----------------0-----------------------------------------0--------0--/4--|
|-----------------0------------------0-0-0------------------0---------------|
|--------------------/4--0--------------------------------0----/4--0--------|
  but when the lord       gets rea   -   dy you gotta move
|---------------------------------------------------------------------------|
|---------------------------------------------------------------------------|
|------0---------------------0----------------------------------------------|
|-/7~--0--------/7-/7--0--/4-0--------/7--7--7--7--5--5--5--5--/7--4--0-----|
|------0---------------------0------------------------------------------/5~-|
|----0----/4--0-----------------/4--0---------------------------------------|

|----------------------------------------------------------------/12~--| |----------------------------------------------------------------------| |-0----------------------0---------------------------------------------| |-0--------------0--/4~--0--------/4-----------------------------------| |-0---------0-/3---------0-----------/5--0-0--0-0--3-/5--3-/5~---------| |----/4--0-------------0----/4--0-----------------------------0--------|

guitar

 


Email
YouTube Twitter
RSS
Рейтинг@Mail.ru

© 2021 World Electric Guitar
Web дизайн: А.Устюжанин